`
On English
09-02-2007 21:14 Творчество | Поэзия

Автостопщик

A
sus2 Am
E||---------------------------------|---------------------------------|
B||--------0------1----0--0--1------|--------0------1----0--0--1------|
G||--------2------2----2--2--2------|--------2------2----2--2--2------|
D||--0--2--2------2----2--2--2------|--0--2--2------2----2--2--2------|
A||---------------------------------|---------------------------------|
E||---------------------------------|---------------------------------|


F G
--1-----------------3--------------------|
--1-----------------3--------------------|
--2-----------------0--------------------|
--3-----------------0--------------------|
--3-----------------2--------------------|
--1-----------------3--------------------|


c E
--0-------------------0----------------|
--1-------------------0----------------|
--0-------------------1----------------|
--2-------------------2----------------|
--3-------------------2----------------|
--3-------------------0----------------|

Asus2 Am Am
Не один ты среди скал,
Asus2 Am Am
И не страшен тебе шквал.

F
Миг дождливой поры
G
и дыханье пурги
C E
тебе не страшны...

Припев:
Dm Am Am Am E E Am
--------1-----1----1----0--------|--0------0----0------0----0----|--0--------||
-----3-----3------------1--------|--1------1----0------3----0----|--1--------||
--2---------------------2--------|--2------2----1------1----1----|--2--------||
------------------------2--------|--2------2----2------2----2----|--2--------||
------------------------0--------|--0------0----2------2----2----|--0--------||
---------------------------------|--------------0------0----0----|-----------||
Dm Am
А-автостопщик,
E Am
Мир для тебя
А-автостопщик
В пути всегда.

Лик отца за окном.
Вспоминаешь свой дом.

Но несешься вперед,
И судьба тебя ждет
За тот поворот...

Припев.

Шум мотора в пути.
И не можешь сойти.

Визг шальных тормозов,
И удар спереди.
Мама, спаси!..

Не один ты среди скал,
И не страшен тебе шквал...

Но удача спасла
И тебя сберегла
От смерти и зла...

Припев.

Комментариев: 0
 



 
Здесь теоретически может присутствовать ваша реклама


Последние комментарии:

Мечты
Илья: Здравствуйте.Два месяца назад узнал что у меня гепатит C 2 генотип.
Где заразился так и не получилось выяснить.
Врач предложил несколько способов лечения по интерфероновой и безинтерфероновой схеме(софосбувир-даклатасвир).Нашел ресурс где можно приобрести велпатасвир hep24.com
...
(03-03-2017)
Server4you и Mediafinanz - как хостеры и коллекторы работают вместе
Катя: Мне тоже сегодня пришло письмо от Registered as a debt collection agency
by the District Court Osnabrück
according to § 10 sect. 1 No. 1 RDG
------------------------------------------------------------
Weiße Breite 5
D-49084 Osnabrück
Telef...
(12-09-2016)
Михаил: Понятно. Я не стал платить. Долго переписывался с их финансовым отделом.
В итоге письма прекратились. С коллектарами не стал общаться.
(13-06-2015)
Nikita: Я решил заплатить, Михаил. И после этого угрозы прекратились. Я ушел от server4you полностью к хостерам, с которыми я уже более 8 лет параллельно был, только тариф взял больше на VPS, чтобы все уместилось: http://infobox.ru/?ref=50836 (20-02-2015)
Мы поженились!
Nikita: Спасибо, Александра! :) (08-08-2013)
Александра: Ураааааа!!!! Поздравляю! Теперь детишек, слинг и путешествовать с ними ) (08-08-2013)
Nikita: Спасибо! ) (11-07-2013)

Совершенная случайность:

«Покинул Тайланд, пробыл там почти месяц. Стала заканчиваться виза, да и нужно было отлипнуть от Сонкгхлы. :) С границы без проблем застопил милую молодую пару, которая научила меня основным фразам на малайзийском, рассказада немного о стране, да и вообще показала свою родину с хорошей стороны. Приехал в Алурстар, небольшой городок. Остановился в мотеле за 35 рингит. Прогулялся, отыскал все таки банкомат. Мне подарили забавную карту окрест...»